ISO-10303-21;
HEADER;
FILE_DESCRIPTION (( 'STEP AP214' ),
    '1' );
FILE_NAME ('Çàäâèæêà â ñáîðå.STEP',
    '2025-09-02T07:15:18',
    ( '' ),
    ( '' ),
    'SwSTEP 2.0',
    'SolidWorks 2021',
    '' );
FILE_SCHEMA (( 'AUTOMOTIVE_DESIGN' ));
ENDSEC;

DATA;
#1 = MANIFOLD_SOLID_BREP ( '????-1-solid1', #88 ) ;
#2 = EDGE_LOOP ( 'NONE', ( #282, #90, #209, #331 ) ) ;
#3 = PRESENTATION_LAYER_ASSIGNMENT (  '', '', ( #218 ) ) ;
#4 = PRESENTATION_LAYER_ASSIGNMENT (  '', '', ( #139 ) ) ;
#5 = CARTESIAN_POINT ( 'NONE',  ( 6.872566925740414057, -381.2147380416292322, 1.095618512345162054 ) ) ;
#6 = DIRECTION ( 'NONE',  ( -0.000000000000000000, 1.000000000000000000, 0.000000000000000000 ) ) ;
#7 = DIRECTION ( 'NONE',  ( -0.000000000000000000, 1.000000000000000000, 0.000000000000000000 ) ) ;
#8 = EDGE_CURVE ( 'NONE', #189, #182, #168, .T. ) ;
#9 =( LENGTH_UNIT ( ) NAMED_UNIT ( * ) SI_UNIT ( .MILLI., .METRE. ) );
#10 = STYLED_ITEM ( 'NONE', ( #119 ), #124 ) ;
#11 = EDGE_CURVE ( 'NONE', #258, #262, #221, .T. ) ;
#12 = SHAPE_REPRESENTATION ( 'Ñêâàæèíà___', ( #14 ), #41 ) ;
#13 = SURFACE_STYLE_USAGE ( .BOTH. , #300 ) ;
#14 = AXIS2_PLACEMENT_3D ( 'NONE', #160, #97, #248 ) ;
#15 = DIRECTION ( 'NONE',  ( -0.000000000000000000, 1.000000000000000000, 0.000000000000000000 ) ) ;
#16 = EDGE_LOOP ( 'NONE', ( #270, #294 ) ) ;
#17 = FACE_OUTER_BOUND ( 'NONE', #308, .T. ) ;
#18 = PRODUCT_CONTEXT ( 'NONE', #105, 'mechanical' ) ;
#19 = COLOUR_RGB ( '',0.5294117647058823595, 0.5490196078431373028, 0.5490196078431373028 ) ;
#20 =( GEOMETRIC_REPRESENTATION_CONTEXT ( 3 ) GLOBAL_UNCERTAINTY_ASSIGNED_CONTEXT ( ( #155 ) ) GLOBAL_UNIT_ASSIGNED_CONTEXT ( ( #23, #29, #35 ) ) REPRESENTATION_CONTEXT ( 'NONE', 'WORKASPACE' ) );
#21 =( NAMED_UNIT ( * ) SI_UNIT ( $, .STERADIAN. ) SOLID_ANGLE_UNIT ( ) );
#22 = EDGE_LOOP ( 'NONE', ( #339, #24, #220, #236 ) ) ;
#23 =( LENGTH_UNIT ( ) NAMED_UNIT ( * ) SI_UNIT ( .MILLI., .METRE. ) );
#24 = ORIENTED_EDGE ( 'NONE', *, *, #318, .F. ) ;
#25 = SHAPE_REPRESENTATION ( 'Çàäâèæêà â ñáîðå', ( #59, #197 ), #334 ) ;
#26 = AXIS2_PLACEMENT_3D ( 'NONE', #43, #202, #101 ) ;
#27 = ORIENTED_EDGE ( 'NONE', *, *, #37, .T. ) ;
#28 = CARTESIAN_POINT ( 'NONE',  ( 6.872566925740414057, -381.2147380416292322, 1.095618512345162054 ) ) ;
#29 =( NAMED_UNIT ( * ) PLANE_ANGLE_UNIT ( ) SI_UNIT ( $, .RADIAN. ) );
#30 = EDGE_LOOP ( 'NONE', ( #316, #217, #81, #216 ) ) ;
#31 = FILL_AREA_STYLE ('',( #111 ) ) ;
#32 = PRODUCT_DEFINITION_CONTEXT ( 'detailed design', #232, 'design' ) ;
#33 = DIRECTION ( 'NONE',  ( 0.9963666264661216188, 0.000000000000000000, -0.08516775014358453355 ) ) ;
#34 = PRODUCT_DEFINITION_FORMATION_WITH_SPECIFIED_SOURCE ( 'ANY', '', #329, .NOT_KNOWN. ) ;
#35 =( NAMED_UNIT ( * ) SI_UNIT ( $, .STERADIAN. ) SOLID_ANGLE_UNIT ( ) );
#36 = DIRECTION ( 'NONE',  ( 0.000000000000000000, -1.000000000000000000, 0.000000000000000000 ) ) ;
#37 = EDGE_CURVE ( 'NONE', #182, #189, #283, .T. ) ;
#38 = DIRECTION ( 'NONE',  ( 0.000000000000000000, -1.000000000000000000, 0.000000000000000000 ) ) ;
#39 = DIRECTION ( 'NONE',  ( 0.9963666264661217298, 0.000000000000000000, -0.08516775014358454743 ) ) ;
#40 = PRESENTATION_LAYER_ASSIGNMENT (  '', '', ( #115 ) ) ;
#41 =( GEOMETRIC_REPRESENTATION_CONTEXT ( 3 ) GLOBAL_UNCERTAINTY_ASSIGNED_CONTEXT ( ( #193 ) ) GLOBAL_UNIT_ASSIGNED_CONTEXT ( ( #174, #176, #150 ) ) REPRESENTATION_CONTEXT ( 'NONE', 'WORKASPACE' ) );
#42 =( NAMED_UNIT ( * ) PLANE_ANGLE_UNIT ( ) SI_UNIT ( $, .RADIAN. ) );
#43 = CARTESIAN_POINT ( 'NONE',  ( 6.872566925740414057, -381.2147380416292322, 1.095618512345162054 ) ) ;
#44 = FILL_AREA_STYLE ('',( #52 ) ) ;
#45 = EDGE_CURVE ( 'NONE', #272, #258, #138, .T. ) ;
#46 = PRODUCT_DEFINITION_SHAPE ( 'NONE', 'NONE',  #231 ) ;
#47 =( LENGTH_UNIT ( ) NAMED_UNIT ( * ) SI_UNIT ( .MILLI., .METRE. ) );
#48 =( LENGTH_UNIT ( ) NAMED_UNIT ( * ) SI_UNIT ( .MILLI., .METRE. ) );
#49 = APPLICATION_CONTEXT ( 'automotive_design' ) ;
#50 = AXIS2_PLACEMENT_3D ( 'NONE', #206, #162, #127 ) ;
#51 = FILL_AREA_STYLE ('',( #259 ) ) ;
#52 = FILL_AREA_STYLE_COLOUR ( '', #19 ) ;
#53 = APPLICATION_CONTEXT ( 'automotive_design' ) ;
#54 = SURFACE_SIDE_STYLE ('',( #281 ) ) ;
#55 = ORIENTED_EDGE ( 'NONE', *, *, #318, .T. ) ;
#56 = APPLICATION_PROTOCOL_DEFINITION ( 'draft international standard', 'automotive_design', 1998, #105 ) ;
#57 = VECTOR ( 'NONE', #7, 1000.000000000000000 ) ;
#58 = COLOUR_RGB ( '',0.5294117647058823595, 0.5490196078431373028, 0.5490196078431373028 ) ;
#59 = AXIS2_PLACEMENT_3D ( 'NONE', #85, #187, #260 ) ;
#60 =( NAMED_UNIT ( * ) PLANE_ANGLE_UNIT ( ) SI_UNIT ( $, .RADIAN. ) );
#61 = SURFACE_STYLE_USAGE ( .BOTH. , #310 ) ;
#62 =( GEOMETRIC_REPRESENTATION_CONTEXT ( 3 ) GLOBAL_UNCERTAINTY_ASSIGNED_CONTEXT ( ( #296 ) ) GLOBAL_UNIT_ASSIGNED_CONTEXT ( ( #273, #60, #196 ) ) REPRESENTATION_CONTEXT ( 'NONE', 'WORKASPACE' ) );
#63 = UNCERTAINTY_MEASURE_WITH_UNIT (LENGTH_MEASURE( 1.000000000000000082E-05 ), #201, 'distance_accuracy_value', 'NONE');
#64 = DIRECTION ( 'NONE',  ( 0.000000000000000000, -1.000000000000000000, 0.000000000000000000 ) ) ;
#65 = DIRECTION ( 'NONE',  ( -0.000000000000000000, 1.000000000000000000, 0.000000000000000000 ) ) ;
#66 = CARTESIAN_POINT ( 'NONE',  ( 6.872566925740414057, -431.2147380416292322, 1.095618512345162054 ) ) ;
#67 = COLOUR_RGB ( '',0.7921568627450980005, 0.8196078431372548767, 0.9333333333333333481 ) ;
#68 = DIRECTION ( 'NONE',  ( 0.9963666264661216188, 0.000000000000000000, -0.08516775014358453355 ) ) ;
#69 = PRESENTATION_STYLE_ASSIGNMENT (( #13 ) ) ;
#70 = CARTESIAN_POINT ( 'NONE',  ( -0.1019994595224367750, -431.2147380416292322, 1.691792763350253859 ) ) ;
#71 = FILL_AREA_STYLE_COLOUR ( '', #67 ) ;
#72 = CARTESIAN_POINT ( 'NONE',  ( 13.84713331100326528, -431.2147380416292322, 0.4994442613400711384 ) ) ;
#73 = CIRCLE ( 'NONE', #265, 9.000000000000000000 ) ;
#74 = COLOUR_RGB ( '',0.5294117647058823595, 0.5490196078431373028, 0.5490196078431373028 ) ;
#75 = DIRECTION ( 'NONE',  ( 0.9963666264661217298, 0.000000000000000000, -0.08516775014358454743 ) ) ;
#76 = UNCERTAINTY_MEASURE_WITH_UNIT (LENGTH_MEASURE( 1.000000000000000082E-05 ), #48, 'distance_accuracy_value', 'NONE');
#77 = CARTESIAN_POINT ( 'NONE',  ( 13.84713331100326528, -381.2147380416292322, 0.4994442613400711384 ) ) ;
#78 = EDGE_CURVE ( 'NONE', #272, #237, #125, .T. ) ;
#79 = PRESENTATION_LAYER_ASSIGNMENT (  '', '', ( #302 ) ) ;
#80 = CARTESIAN_POINT ( 'NONE',  ( -0.1019994595224367750, -381.2147380416292322, 1.691792763350253859 ) ) ;
#81 = ORIENTED_EDGE ( 'NONE', *, *, #37, .F. ) ;
#82 = APPLICATION_PROTOCOL_DEFINITION ( 'draft international standard', 'automotive_design', 1998, #53 ) ;
#83 = EDGE_CURVE ( 'NONE', #237, #262, #327, .T. ) ;
#84 = CYLINDRICAL_SURFACE ( 'NONE', #250, 6.999999999999999112 ) ;
#85 = CARTESIAN_POINT ( 'NONE',  ( 0.000000000000000000, 0.000000000000000000, 0.000000000000000000 ) ) ;
#86 = COLOUR_RGB ( '',0.7921568627450980005, 0.8196078431372548767, 0.9333333333333333481 ) ;
#87 = SURFACE_SIDE_STYLE ('',( #312 ) ) ;
#88 = CLOSED_SHELL ( 'NONE', ( #336, #313, #124, #304, #199, #171 ) ) ;
#89 =( GEOMETRIC_REPRESENTATION_CONTEXT ( 3 ) GLOBAL_UNCERTAINTY_ASSIGNED_CONTEXT ( ( #142 ) ) GLOBAL_UNIT_ASSIGNED_CONTEXT ( ( #295, #121, #263 ) ) REPRESENTATION_CONTEXT ( 'NONE', 'WORKASPACE' ) );
#90 = ORIENTED_EDGE ( 'NONE', *, *, #78, .T. ) ;
#91 = CARTESIAN_POINT ( 'NONE',  ( 6.872566925740414057, -431.2147380416292322, 1.095618512345162054 ) ) ;
#92 = VERTEX_POINT ( 'NONE', #72 ) ;
#93 = SURFACE_SIDE_STYLE ('',( #320 ) ) ;
#94 = FILL_AREA_STYLE_COLOUR ( '', #131 ) ;
#95 =( GEOMETRIC_REPRESENTATION_CONTEXT ( 3 ) GLOBAL_UNCERTAINTY_ASSIGNED_CONTEXT ( ( #103 ) ) GLOBAL_UNIT_ASSIGNED_CONTEXT ( ( #335, #153, #21 ) ) REPRESENTATION_CONTEXT ( 'NONE', 'WORKASPACE' ) );
#96 = DIRECTION ( 'NONE',  ( 0.000000000000000000, -1.000000000000000000, 0.000000000000000000 ) ) ;
#97 = DIRECTION ( 'NONE',  ( 0.000000000000000000, 0.000000000000000000, 1.000000000000000000 ) ) ;
#98 = DIRECTION ( 'NONE',  ( 0.000000000000000000, 0.000000000000000000, 1.000000000000000000 ) ) ;
#99 = DIRECTION ( 'NONE',  ( 0.000000000000000000, -1.000000000000000000, 0.000000000000000000 ) ) ;
#100 = CARTESIAN_POINT ( 'NONE',  ( 180.3242308861082108, 315.4034617862209302, 196.1682178260782621 ) ) ;
#101 = DIRECTION ( 'NONE',  ( 0.9963666264661217298, 0.000000000000000000, -0.08516775014358454743 ) ) ;
#102 = CARTESIAN_POINT ( 'NONE',  ( 13.84713331100326528, -431.2147380416292322, 0.4994442613400710274 ) ) ;
#103 = UNCERTAINTY_MEASURE_WITH_UNIT (LENGTH_MEASURE( 1.000000000000000082E-05 ), #335, 'distance_accuracy_value', 'NONE');
#104 = DIRECTION ( 'NONE',  ( 1.000000000000000000, 0.000000000000000000, 0.000000000000000000 ) ) ;
#105 = APPLICATION_CONTEXT ( 'automotive_design' ) ;
#106 = CARTESIAN_POINT ( 'NONE',  ( -2.094732712454681511, -431.2147380416292322, 1.862128263637422787 ) ) ;
#107 = ADVANCED_BREP_SHAPE_REPRESENTATION ( '', ( #1, #14 ), #41 ) ;
#108 = VECTOR ( 'NONE', #6, 1000.000000000000000 ) ;
#109 = AXIS2_PLACEMENT_3D ( 'NONE', #280, #324, #104 ) ;
#110 = ITEM_DEFINED_TRANSFORMATION ( 'NONE', 'NONE', #197,  #14 ) ;
#111 = FILL_AREA_STYLE_COLOUR ( '', #58 ) ;
#112 = FILL_AREA_STYLE_COLOUR ( '', #86 ) ;
#113 = ORIENTED_EDGE ( 'NONE', *, *, #45, .T. ) ;
#114 = DIRECTION ( 'NONE',  ( 0.9963666264661217298, 0.000000000000000000, -0.08516775014358454743 ) ) ;
#115 = STYLED_ITEM ( 'NONE', ( #274 ), #1 ) ;
#116 = MECHANICAL_DESIGN_GEOMETRIC_PRESENTATION_REPRESENTATION (  '', ( #267 ), #284 ) ;
#117 = DIRECTION ( 'NONE',  ( 0.9963666264661217298, 0.000000000000000000, -0.08516775014358454743 ) ) ;
#118 = EDGE_CURVE ( 'NONE', #262, #237, #73, .T. ) ;
#119 = PRESENTATION_STYLE_ASSIGNMENT (( #247 ) ) ;
#120 = CARTESIAN_POINT ( 'NONE',  ( 6.872566925740414057, -381.2147380416292322, 1.095618512345162054 ) ) ;
#121 =( NAMED_UNIT ( * ) PLANE_ANGLE_UNIT ( ) SI_UNIT ( $, .RADIAN. ) );
#122 =( GEOMETRIC_REPRESENTATION_CONTEXT ( 3 ) GLOBAL_UNCERTAINTY_ASSIGNED_CONTEXT ( ( #227 ) ) GLOBAL_UNIT_ASSIGNED_CONTEXT ( ( #299, #325, #148 ) ) REPRESENTATION_CONTEXT ( 'NONE', 'WORKASPACE' ) );
#123 = SHAPE_REPRESENTATION_RELATIONSHIP ( 'NONE' , 'NONE' ,  #12, #107 ) ;
#124 = ADVANCED_FACE ( 'NONE', ( #146, #179 ), #200, .T. ) ;
#125 = LINE ( 'NONE', #323, #224 ) ;
#126 =( NAMED_UNIT ( * ) SI_UNIT ( $, .STERADIAN. ) SOLID_ANGLE_UNIT ( ) );
#127 = DIRECTION ( 'NONE',  ( -0.9963666264661217298, 0.000000000000000000, 0.08516775014358454743 ) ) ;
#128 = MECHANICAL_DESIGN_GEOMETRIC_PRESENTATION_REPRESENTATION (  '', ( #255 ), #89 ) ;
#129 = CARTESIAN_POINT ( 'NONE',  ( 6.872566925740414057, -431.2147380416292322, 1.095618512345162054 ) ) ;
#130 = FACE_BOUND ( 'NONE', #170, .T. ) ;
#131 = COLOUR_RGB ( '',0.5294117647058823595, 0.5490196078431373028, 0.5490196078431373028 ) ;
#132 = SHAPE_DEFINITION_REPRESENTATION ( #212, #12 ) ;
#133 = PRESENTATION_LAYER_ASSIGNMENT (  '', '', ( #278 ) ) ;
#134 = ORIENTED_EDGE ( 'NONE', *, *, #83, .F. ) ;
#135 = SHAPE_DEFINITION_REPRESENTATION ( #46, #25 ) ;
#136 = SURFACE_STYLE_USAGE ( .BOTH. , #242 ) ;
#137 = EDGE_LOOP ( 'NONE', ( #55, #113 ) ) ;
#138 = CIRCLE ( 'NONE', #321, 9.000000000000000000 ) ;
#139 = STYLED_ITEM ( 'NONE', ( #219 ), #313 ) ;
#140 = EDGE_CURVE ( 'NONE', #143, #182, #223, .T. ) ;
#141 = SURFACE_STYLE_FILL_AREA ( #31 ) ;
#142 = UNCERTAINTY_MEASURE_WITH_UNIT (LENGTH_MEASURE( 1.000000000000000082E-05 ), #295, 'distance_accuracy_value', 'NONE');
#143 = VERTEX_POINT ( 'NONE', #251 ) ;
#144 = FACE_OUTER_BOUND ( 'NONE', #2, .T. ) ;
#145 = AXIS2_PLACEMENT_3D ( 'NONE', #91, #222, #117 ) ;
#146 = FACE_OUTER_BOUND ( 'NONE', #137, .T. ) ;
#147 = FILL_AREA_STYLE_COLOUR ( '', #74 ) ;
#148 =( NAMED_UNIT ( * ) SI_UNIT ( $, .STERADIAN. ) SOLID_ANGLE_UNIT ( ) );
#149 = SURFACE_STYLE_FILL_AREA ( #319 ) ;
#150 =( NAMED_UNIT ( * ) SI_UNIT ( $, .STERADIAN. ) SOLID_ANGLE_UNIT ( ) );
#151 = FILL_AREA_STYLE ('',( #71 ) ) ;
#152 = SURFACE_STYLE_USAGE ( .BOTH. , #87 ) ;
#153 =( NAMED_UNIT ( * ) PLANE_ANGLE_UNIT ( ) SI_UNIT ( $, .RADIAN. ) );
#154 = PRODUCT ( 'Çàäâèæêà â ñáîðå', 'Çàäâèæêà â ñáîðå', '', ( #18 ) ) ;
#155 = UNCERTAINTY_MEASURE_WITH_UNIT (LENGTH_MEASURE( 1.000000000000000082E-05 ), #23, 'distance_accuracy_value', 'NONE');
#156 = PRODUCT_RELATED_PRODUCT_CATEGORY ( 'part', '', ( #329 ) ) ;
#157 = DIRECTION ( 'NONE',  ( 1.000000000000000000, 0.000000000000000000, 0.000000000000000000 ) ) ;
#158 = PRESENTATION_STYLE_ASSIGNMENT (( #337 ) ) ;
#159 =( GEOMETRIC_REPRESENTATION_CONTEXT ( 3 ) GLOBAL_UNCERTAINTY_ASSIGNED_CONTEXT ( ( #169 ) ) GLOBAL_UNIT_ASSIGNED_CONTEXT ( ( #47, #252, #126 ) ) REPRESENTATION_CONTEXT ( 'NONE', 'WORKASPACE' ) );
#160 = CARTESIAN_POINT ( 'NONE',  ( 0.000000000000000000, 0.000000000000000000, 0.000000000000000000 ) ) ;
#161 = DIRECTION ( 'NONE',  ( 0.000000000000000000, -1.000000000000000000, 0.000000000000000000 ) ) ;
#162 = DIRECTION ( 'NONE',  ( -0.000000000000000000, 1.000000000000000000, 0.000000000000000000 ) ) ;
#163 = CARTESIAN_POINT ( 'NONE',  ( -2.094732712454681511, -381.2147380416292322, 1.862128263637422787 ) ) ;
#164 = MECHANICAL_DESIGN_GEOMETRIC_PRESENTATION_REPRESENTATION (  '', ( #115 ), #122 ) ;
#165 = PRODUCT_CONTEXT ( 'NONE', #49, 'mechanical' ) ;
#166 = AXIS2_PLACEMENT_3D ( 'NONE', #253, #161, #257 ) ;
#167 = EDGE_CURVE ( 'NONE', #92, #143, #177, .T. ) ;
#168 = CIRCLE ( 'NONE', #277, 7.000000000000000888 ) ;
#169 = UNCERTAINTY_MEASURE_WITH_UNIT (LENGTH_MEASURE( 1.000000000000000082E-05 ), #47, 'distance_accuracy_value', 'NONE');
#170 = EDGE_LOOP ( 'NONE', ( #27, #340 ) ) ;
#171 = ADVANCED_FACE ( 'NONE', ( #261 ), #309, .F. ) ;
#172 = SURFACE_SIDE_STYLE ('',( #149 ) ) ;
#173 = CARTESIAN_POINT ( 'NONE',  ( 6.872566925740414057, -431.2147380416292322, 1.095618512345162054 ) ) ;
#174 =( LENGTH_UNIT ( ) NAMED_UNIT ( * ) SI_UNIT ( .MILLI., .METRE. ) );
#175 = CARTESIAN_POINT ( 'NONE',  ( 6.872566925740414057, -381.2147380416292322, 1.095618512345162054 ) ) ;
#176 =( NAMED_UNIT ( * ) PLANE_ANGLE_UNIT ( ) SI_UNIT ( $, .RADIAN. ) );
#177 = CIRCLE ( 'NONE', #233, 7.000000000000000888 ) ;
#178 = COLOUR_RGB ( '',0.5294117647058823595, 0.5490196078431373028, 0.5490196078431373028 ) ;
#179 = FACE_BOUND ( 'NONE', #16, .T. ) ;
#180 = DIRECTION ( 'NONE',  ( 0.000000000000000000, -1.000000000000000000, 0.000000000000000000 ) ) ;
#181 = EDGE_CURVE ( 'NONE', #92, #189, #286, .T. ) ;
#182 = VERTEX_POINT ( 'NONE', #80 ) ;
#183 = DIRECTION ( 'NONE',  ( -0.9963666264661217298, 0.000000000000000000, 0.08516775014358454743 ) ) ;
#184 = AXIS2_PLACEMENT_3D ( 'NONE', #120, #99, #68 ) ;
#185 = SURFACE_SIDE_STYLE ('',( #235 ) ) ;
#186 = FILL_AREA_STYLE ('',( #298 ) ) ;
#187 = DIRECTION ( 'NONE',  ( 0.000000000000000000, 0.000000000000000000, 1.000000000000000000 ) ) ;
#188 = PRESENTATION_STYLE_ASSIGNMENT (( #244 ) ) ;
#189 = VERTEX_POINT ( 'NONE', #77 ) ;
#190 = EDGE_LOOP ( 'NONE', ( #266, #229, #287, #239 ) ) ;
#191 = AXIS2_PLACEMENT_3D ( 'NONE', #66, #36, #245 ) ;
#192 = PRODUCT_DEFINITION_FORMATION_WITH_SPECIFIED_SOURCE ( 'ANY', '', #154, .NOT_KNOWN. ) ;
#193 = UNCERTAINTY_MEASURE_WITH_UNIT (LENGTH_MEASURE( 1.000000000000000082E-05 ), #174, 'distance_accuracy_value', 'NONE');
#194 = PRESENTATION_STYLE_ASSIGNMENT (( #61 ) ) ;
#195 = PRODUCT_RELATED_PRODUCT_CATEGORY ( 'part', '', ( #154 ) ) ;
#196 =( NAMED_UNIT ( * ) SI_UNIT ( $, .STERADIAN. ) SOLID_ANGLE_UNIT ( ) );
#197 = AXIS2_PLACEMENT_3D ( 'NONE', #100, #98, #157 ) ;
#198 = CARTESIAN_POINT ( 'NONE',  ( -2.094732712454681511, -431.2147380416292322, 1.862128263637422787 ) ) ;
#199 = ADVANCED_FACE ( 'NONE', ( #285 ), #210, .T. ) ;
#200 = PLANE ( 'NONE',  #191 ) ;
#201 =( LENGTH_UNIT ( ) NAMED_UNIT ( * ) SI_UNIT ( .MILLI., .METRE. ) );
#202 = DIRECTION ( 'NONE',  ( 0.000000000000000000, -1.000000000000000000, 0.000000000000000000 ) ) ;
#203 = MECHANICAL_DESIGN_GEOMETRIC_PRESENTATION_REPRESENTATION (  '', ( #218 ), #95 ) ;
#204 = MECHANICAL_DESIGN_GEOMETRIC_PRESENTATION_REPRESENTATION (  '', ( #139 ), #62 ) ;
#205 =( NAMED_UNIT ( * ) PLANE_ANGLE_UNIT ( ) SI_UNIT ( $, .RADIAN. ) );
#206 = CARTESIAN_POINT ( 'NONE',  ( 6.872566925740414057, -431.2147380416292322, 1.095618512345162054 ) ) ;
#207 = PRESENTATION_LAYER_ASSIGNMENT (  '', '', ( #10 ) ) ;
#208 = AXIS2_PLACEMENT_3D ( 'NONE', #315, #65, #240 ) ;
#209 = ORIENTED_EDGE ( 'NONE', *, *, #83, .T. ) ;
#210 = CYLINDRICAL_SURFACE ( 'NONE', #215, 9.000000000000000000 ) ;
#211 = CARTESIAN_POINT ( 'NONE',  ( 15.83986656393551051, -381.2147380416292322, 0.3291087610529020435 ) ) ;
#212 = PRODUCT_DEFINITION_SHAPE ( 'NONE', 'NONE',  #297 ) ;
#213 = FILL_AREA_STYLE ('',( #112 ) ) ;
#214 = MECHANICAL_DESIGN_GEOMETRIC_PRESENTATION_REPRESENTATION (  '', ( #278 ), #159 ) ;
#215 = AXIS2_PLACEMENT_3D ( 'NONE', #129, #307, #228 ) ;
#216 = ORIENTED_EDGE ( 'NONE', *, *, #140, .F. ) ;
#217 = ORIENTED_EDGE ( 'NONE', *, *, #181, .T. ) ;
#218 = STYLED_ITEM ( 'NONE', ( #303 ), #171 ) ;
#219 = PRESENTATION_STYLE_ASSIGNMENT (( #136 ) ) ;
#220 = ORIENTED_EDGE ( 'NONE', *, *, #11, .T. ) ;
#221 = LINE ( 'NONE', #198, #108 ) ;
#222 = DIRECTION ( 'NONE',  ( 0.000000000000000000, -1.000000000000000000, 0.000000000000000000 ) ) ;
#223 = LINE ( 'NONE', #70, #57 ) ;
#224 = VECTOR ( 'NONE', #301, 1000.000000000000000 ) ;
#225 =( NAMED_UNIT ( * ) SI_UNIT ( $, .STERADIAN. ) SOLID_ANGLE_UNIT ( ) );
#226 = CARTESIAN_POINT ( 'NONE',  ( 15.83986656393551051, -431.2147380416292322, 0.3291087610529020435 ) ) ;
#227 = UNCERTAINTY_MEASURE_WITH_UNIT (LENGTH_MEASURE( 1.000000000000000082E-05 ), #299, 'distance_accuracy_value', 'NONE');
#228 = DIRECTION ( 'NONE',  ( -0.9963666264661217298, 0.000000000000000000, 0.08516775014358453355 ) ) ;
#229 = ORIENTED_EDGE ( 'NONE', *, *, #167, .T. ) ;
#230 = DIRECTION ( 'NONE',  ( 0.9963666264661216188, 0.000000000000000000, -0.08516775014358453355 ) ) ;
#231 = PRODUCT_DEFINITION ( 'UNKNOWN', '', #192, #271 ) ;
#232 = APPLICATION_CONTEXT ( 'automotive_design' ) ;
#233 = AXIS2_PLACEMENT_3D ( 'NONE', #333, #180, #230 ) ;
#234 = PRESENTATION_LAYER_ASSIGNMENT (  '', '', ( #267 ) ) ;
#235 = SURFACE_STYLE_FILL_AREA ( #51 ) ;
#236 = ORIENTED_EDGE ( 'NONE', *, *, #118, .T. ) ;
#237 = VERTEX_POINT ( 'NONE', #211 ) ;
#238 = CIRCLE ( 'NONE', #166, 7.000000000000000888 ) ;
#239 = ORIENTED_EDGE ( 'NONE', *, *, #8, .F. ) ;
#240 = DIRECTION ( 'NONE',  ( -0.9963666264661217298, 0.000000000000000000, 0.08516775014358453355 ) ) ;
#241 = PRESENTATION_LAYER_ASSIGNMENT (  '', '', ( #255 ) ) ;
#242 = SURFACE_SIDE_STYLE ('',( #275 ) ) ;
#243 =( NAMED_UNIT ( * ) SI_UNIT ( $, .STERADIAN. ) SOLID_ANGLE_UNIT ( ) );
#244 = SURFACE_STYLE_USAGE ( .BOTH. , #93 ) ;
#245 = DIRECTION ( 'NONE',  ( 0.9963666264661217298, 0.000000000000000000, -0.08516775014358454743 ) ) ;
#246 = FILL_AREA_STYLE ('',( #147 ) ) ;
#247 = SURFACE_STYLE_USAGE ( .BOTH. , #172 ) ;
#248 = DIRECTION ( 'NONE',  ( 1.000000000000000000, 0.000000000000000000, 0.000000000000000000 ) ) ;
#249 = MECHANICAL_DESIGN_GEOMETRIC_PRESENTATION_REPRESENTATION (  '', ( #10 ), #314 ) ;
#250 = AXIS2_PLACEMENT_3D ( 'NONE', #330, #254, #183 ) ;
#251 = CARTESIAN_POINT ( 'NONE',  ( -0.1019994595224367750, -431.2147380416292322, 1.691792763350253859 ) ) ;
#252 =( NAMED_UNIT ( * ) PLANE_ANGLE_UNIT ( ) SI_UNIT ( $, .RADIAN. ) );
#253 = CARTESIAN_POINT ( 'NONE',  ( 6.872566925740414057, -431.2147380416292322, 1.095618512345162054 ) ) ;
#254 = DIRECTION ( 'NONE',  ( -0.000000000000000000, 1.000000000000000000, 0.000000000000000000 ) ) ;
#255 = STYLED_ITEM ( 'NONE', ( #194 ), #336 ) ;
#256 =( NAMED_UNIT ( * ) PLANE_ANGLE_UNIT ( ) SI_UNIT ( $, .RADIAN. ) );
#257 = DIRECTION ( 'NONE',  ( 0.9963666264661216188, 0.000000000000000000, -0.08516775014358453355 ) ) ;
#258 = VERTEX_POINT ( 'NONE', #106 ) ;
#259 = FILL_AREA_STYLE_COLOUR ( '', #322 ) ;
#260 = DIRECTION ( 'NONE',  ( 1.000000000000000000, 0.000000000000000000, 0.000000000000000000 ) ) ;
#261 = FACE_OUTER_BOUND ( 'NONE', #190, .T. ) ;
#262 = VERTEX_POINT ( 'NONE', #163 ) ;
#263 =( NAMED_UNIT ( * ) SI_UNIT ( $, .STERADIAN. ) SOLID_ANGLE_UNIT ( ) );
#264 = CONTEXT_DEPENDENT_SHAPE_REPRESENTATION ( #269, #338 ) ;
#265 = AXIS2_PLACEMENT_3D ( 'NONE', #175, #38, #39 ) ;
#266 = ORIENTED_EDGE ( 'NONE', *, *, #181, .F. ) ;
#267 = STYLED_ITEM ( 'NONE', ( #158 ), #199 ) ;
#268 = EDGE_CURVE ( 'NONE', #143, #92, #238, .T. ) ;
#269 =( REPRESENTATION_RELATIONSHIP ('NONE','NONE', #25, #12 ) REPRESENTATION_RELATIONSHIP_WITH_TRANSFORMATION ( #110 )SHAPE_REPRESENTATION_RELATIONSHIP( ) );
#270 = ORIENTED_EDGE ( 'NONE', *, *, #268, .F. ) ;
#271 = PRODUCT_DEFINITION_CONTEXT ( 'detailed design', #53, 'design' ) ;
#272 = VERTEX_POINT ( 'NONE', #226 ) ;
#273 =( LENGTH_UNIT ( ) NAMED_UNIT ( * ) SI_UNIT ( .MILLI., .METRE. ) );
#274 = PRESENTATION_STYLE_ASSIGNMENT (( #152 ) ) ;
#275 = SURFACE_STYLE_FILL_AREA ( #186 ) ;
#276 = DIRECTION ( 'NONE',  ( 0.000000000000000000, -1.000000000000000000, 0.000000000000000000 ) ) ;
#277 = AXIS2_PLACEMENT_3D ( 'NONE', #28, #96, #33 ) ;
#278 = STYLED_ITEM ( 'NONE', ( #69 ), #107 ) ;
#279 = UNCERTAINTY_MEASURE_WITH_UNIT (LENGTH_MEASURE( 1.000000000000000082E-05 ), #9, 'distance_accuracy_value', 'NONE');
#280 = CARTESIAN_POINT ( 'NONE',  ( 0.000000000000000000, 0.000000000000000000, 0.000000000000000000 ) ) ;
#281 = SURFACE_STYLE_FILL_AREA ( #44 ) ;
#282 = ORIENTED_EDGE ( 'NONE', *, *, #45, .F. ) ;
#283 = CIRCLE ( 'NONE', #184, 7.000000000000000888 ) ;
#284 =( GEOMETRIC_REPRESENTATION_CONTEXT ( 3 ) GLOBAL_UNCERTAINTY_ASSIGNED_CONTEXT ( ( #76 ) ) GLOBAL_UNIT_ASSIGNED_CONTEXT ( ( #48, #256, #328 ) ) REPRESENTATION_CONTEXT ( 'NONE', 'WORKASPACE' ) );
#285 = FACE_OUTER_BOUND ( 'NONE', #22, .T. ) ;
#286 = LINE ( 'NONE', #102, #311 ) ;
#287 = ORIENTED_EDGE ( 'NONE', *, *, #140, .T. ) ;
#288 = PLANE ( 'NONE',  #293 ) ;
#289 = MECHANICAL_DESIGN_GEOMETRIC_PRESENTATION_REPRESENTATION (  '', ( #302 ), #20 ) ;
#290 = APPLICATION_PROTOCOL_DEFINITION ( 'draft international standard', 'automotive_design', 1998, #49 ) ;
#291 = FACE_OUTER_BOUND ( 'NONE', #30, .T. ) ;
#292 = ORIENTED_EDGE ( 'NONE', *, *, #118, .F. ) ;
#293 = AXIS2_PLACEMENT_3D ( 'NONE', #5, #64, #114 ) ;
#294 = ORIENTED_EDGE ( 'NONE', *, *, #167, .F. ) ;
#295 =( LENGTH_UNIT ( ) NAMED_UNIT ( * ) SI_UNIT ( .MILLI., .METRE. ) );
#296 = UNCERTAINTY_MEASURE_WITH_UNIT (LENGTH_MEASURE( 1.000000000000000082E-05 ), #273, 'distance_accuracy_value', 'NONE');
#297 = PRODUCT_DEFINITION ( 'UNKNOWN', '', #34, #32 ) ;
#298 = FILL_AREA_STYLE_COLOUR ( '', #178 ) ;
#299 =( LENGTH_UNIT ( ) NAMED_UNIT ( * ) SI_UNIT ( .MILLI., .METRE. ) );
#300 = SURFACE_SIDE_STYLE ('',( #326 ) ) ;
#301 = DIRECTION ( 'NONE',  ( -0.000000000000000000, 1.000000000000000000, 0.000000000000000000 ) ) ;
#302 = STYLED_ITEM ( 'NONE', ( #188 ), #304 ) ;
#303 = PRESENTATION_STYLE_ASSIGNMENT (( #305 ) ) ;
#304 = ADVANCED_FACE ( 'NONE', ( #17, #130 ), #288, .F. ) ;
#305 = SURFACE_STYLE_USAGE ( .BOTH. , #54 ) ;
#306 = CIRCLE ( 'NONE', #145, 9.000000000000000000 ) ;
#307 = DIRECTION ( 'NONE',  ( -0.000000000000000000, 1.000000000000000000, 0.000000000000000000 ) ) ;
#308 = EDGE_LOOP ( 'NONE', ( #292, #134 ) ) ;
#309 = CYLINDRICAL_SURFACE ( 'NONE', #50, 6.999999999999999112 ) ;
#310 = SURFACE_SIDE_STYLE ('',( #141 ) ) ;
#311 = VECTOR ( 'NONE', #15, 1000.000000000000000 ) ;
#312 = SURFACE_STYLE_FILL_AREA ( #213 ) ;
#313 = ADVANCED_FACE ( 'NONE', ( #144 ), #317, .T. ) ;
#314 =( GEOMETRIC_REPRESENTATION_CONTEXT ( 3 ) GLOBAL_UNCERTAINTY_ASSIGNED_CONTEXT ( ( #279 ) ) GLOBAL_UNIT_ASSIGNED_CONTEXT ( ( #9, #205, #243 ) ) REPRESENTATION_CONTEXT ( 'NONE', 'WORKASPACE' ) );
#315 = CARTESIAN_POINT ( 'NONE',  ( 6.872566925740414057, -431.2147380416292322, 1.095618512345162054 ) ) ;
#316 = ORIENTED_EDGE ( 'NONE', *, *, #268, .T. ) ;
#317 = CYLINDRICAL_SURFACE ( 'NONE', #208, 9.000000000000000000 ) ;
#318 = EDGE_CURVE ( 'NONE', #258, #272, #306, .T. ) ;
#319 = FILL_AREA_STYLE ('',( #94 ) ) ;
#320 = SURFACE_STYLE_FILL_AREA ( #246 ) ;
#321 = AXIS2_PLACEMENT_3D ( 'NONE', #173, #276, #75 ) ;
#322 = COLOUR_RGB ( '',0.5294117647058823595, 0.5490196078431373028, 0.5490196078431373028 ) ;
#323 = CARTESIAN_POINT ( 'NONE',  ( 15.83986656393551051, -431.2147380416292322, 0.3291087610529020435 ) ) ;
#324 = DIRECTION ( 'NONE',  ( 0.000000000000000000, 0.000000000000000000, 1.000000000000000000 ) ) ;
#325 =( NAMED_UNIT ( * ) PLANE_ANGLE_UNIT ( ) SI_UNIT ( $, .RADIAN. ) );
#326 = SURFACE_STYLE_FILL_AREA ( #151 ) ;
#327 = CIRCLE ( 'NONE', #26, 9.000000000000000000 ) ;
#328 =( NAMED_UNIT ( * ) SI_UNIT ( $, .STERADIAN. ) SOLID_ANGLE_UNIT ( ) );
#329 = PRODUCT ( 'Ñêâàæèíà___', 'Ñêâàæèíà___', '', ( #165 ) ) ;
#330 = CARTESIAN_POINT ( 'NONE',  ( 6.872566925740414057, -431.2147380416292322, 1.095618512345162054 ) ) ;
#331 = ORIENTED_EDGE ( 'NONE', *, *, #11, .F. ) ;
#332 = APPLICATION_PROTOCOL_DEFINITION ( 'draft international standard', 'automotive_design', 1998, #232 ) ;
#333 = CARTESIAN_POINT ( 'NONE',  ( 6.872566925740414057, -431.2147380416292322, 1.095618512345162054 ) ) ;
#334 =( GEOMETRIC_REPRESENTATION_CONTEXT ( 3 ) GLOBAL_UNCERTAINTY_ASSIGNED_CONTEXT ( ( #63 ) ) GLOBAL_UNIT_ASSIGNED_CONTEXT ( ( #201, #42, #225 ) ) REPRESENTATION_CONTEXT ( 'NONE', 'WORKASPACE' ) );
#335 =( LENGTH_UNIT ( ) NAMED_UNIT ( * ) SI_UNIT ( .MILLI., .METRE. ) );
#336 = ADVANCED_FACE ( 'NONE', ( #291 ), #84, .F. ) ;
#337 = SURFACE_STYLE_USAGE ( .BOTH. , #185 ) ;
#338 = PRODUCT_DEFINITION_SHAPE ( 'NONE', 'NONE',  #341 ) ;
#339 = ORIENTED_EDGE ( 'NONE', *, *, #78, .F. ) ;
#340 = ORIENTED_EDGE ( 'NONE', *, *, #8, .T. ) ;
#341 = NEXT_ASSEMBLY_USAGE_OCCURRENCE ( 'NAUO1', ' ', ' ', #231, #297, $ ) ;
ENDSEC;
END-ISO-10303-21;
